ISO-10303-21;
HEADER;
FILE_DESCRIPTION (( 'STEP AP203' ),
    '1' );
FILE_NAME ('N-SF1-BPBSC-12.7-420-680.STEP',
    '2021-01-05T02:13:58',
    ( '' ),
    ( '' ),
    'SwSTEP 2.0',
    'SolidWorks 2020',
    '' );
FILE_SCHEMA (( 'CONFIG_CONTROL_DESIGN' ));
ENDSEC;

DATA;
#1 = AXIS2_PLACEMENT_3D ( 'NONE', #128, #205, #279 ) ;
#2 = CARTESIAN_POINT ( 'NONE',  ( 6.349999999999996980, 6.349999999999996980, -6.349999999999999645 ) ) ;
#3 = CALENDAR_DATE ( 2021, 5, 1 ) ;
#4 = SECURITY_CLASSIFICATION ( '', '', #5 ) ;
#5 = SECURITY_CLASSIFICATION_LEVEL ( 'unclassified' ) ;
#6 = LINE ( 'NONE', #50, #268 ) ;
#7 = PERSON_AND_ORGANIZATION_ROLE ( 'creator' ) ;
#8 = VECTOR ( 'NONE', #224, 1000.000000000000114 ) ;
#9 = LINE ( 'NONE', #85, #120 ) ;
#10 = EDGE_CURVE ( 'NONE', #121, #241, #151, .T. ) ;
#11 = CARTESIAN_POINT ( 'NONE',  ( -6.349999999999999645, -6.350000000000000533, 6.349999999999999645 ) ) ;
#12 = ORIENTED_EDGE ( 'NONE', *, *, #235, .T. ) ;
#13 = DIRECTION ( 'NONE',  ( 0.000000000000000000, 0.000000000000000000, -1.000000000000000000 ) ) ;
#14 = VERTEX_POINT ( 'NONE', #48 ) ;
#15 = ORIENTED_EDGE ( 'NONE', *, *, #108, .F. ) ;
#16 = LOCAL_TIME ( 10, 13, 58.00000000000000000, #124 ) ;
#17 = DIRECTION ( 'NONE',  ( 1.000000000000000000, 0.000000000000000000, 0.000000000000000000 ) ) ;
#18 = ORIENTED_EDGE ( 'NONE', *, *, #265, .F. ) ;
#19 = ORIENTED_EDGE ( 'NONE', *, *, #101, .T. ) ;
#20 = CC_DESIGN_DATE_AND_TIME_ASSIGNMENT ( #133, #129, ( #4 ) ) ;
#21 = CARTESIAN_POINT ( 'NONE',  ( 6.349999999999999645, -6.350000000000000533, -6.349999999999999645 ) ) ;
#22 = DATE_AND_TIME ( #315, #236 ) ;
#23 = LINE ( 'NONE', #249, #187 ) ;
#24 = CC_DESIGN_PERSON_AND_ORGANIZATION_ASSIGNMENT ( #31, #7, ( #242 ) ) ;
#25 = VERTEX_POINT ( 'NONE', #21 ) ;
#26 = PERSON_AND_ORGANIZATION ( #304, #136 ) ;
#27 = VECTOR ( 'NONE', #286, 1000.000000000000114 ) ;
#28 = LINE ( 'NONE', #180, #38 ) ;
#29 = EDGE_CURVE ( 'NONE', #44, #25, #204, .T. ) ;
#30 = CARTESIAN_POINT ( 'NONE',  ( 6.349999999999999645, -6.350000000000000533, 6.349999999999999645 ) ) ;
#31 = PERSON_AND_ORGANIZATION ( #304, #136 ) ;
#32 = DIRECTION ( 'NONE',  ( 0.000000000000000000, 0.000000000000000000, 1.000000000000000000 ) ) ;
#33 = ORIENTED_EDGE ( 'NONE', *, *, #172, .T. ) ;
#34 = FACE_OUTER_BOUND ( 'NONE', #99, .T. ) ;
#35 = APPROVAL ( #56, 'UNSPECIFIED' ) ;
#36 = DIRECTION ( 'NONE',  ( -2.220446049250312588E-16, 1.000000000000000000, 0.000000000000000000 ) ) ;
#37 = CARTESIAN_POINT ( 'NONE',  ( 6.349999999999998757, 6.349999999999998757, -6.349999999999999645 ) ) ;
#38 = VECTOR ( 'NONE', #246, 1000.000000000000000 ) ;
#39 =( NAMED_UNIT ( * ) PLANE_ANGLE_UNIT ( ) SI_UNIT ( $, .RADIAN. ) );
#40 = ORIENTED_EDGE ( 'NONE', *, *, #172, .F. ) ;
#41 = PLANE ( 'NONE',  #270 ) ;
#42 = EDGE_LOOP ( 'NONE', ( #33, #320, #64, #12 ) ) ;
#43 = CARTESIAN_POINT ( 'NONE',  ( -6.350000000000002309, 6.350000000000001421, -6.349999999999999645 ) ) ;
#44 = VERTEX_POINT ( 'NONE', #297 ) ;
#45 = EDGE_CURVE ( 'NONE', #241, #118, #106, .T. ) ;
#46 = APPROVAL_ROLE ( '' ) ;
#47 = VECTOR ( 'NONE', #52, 1000.000000000000000 ) ;
#48 = CARTESIAN_POINT ( 'NONE',  ( -6.349999999999999645, -6.350000000000000533, 6.349999999999999645 ) ) ;
#49 = EDGE_CURVE ( 'NONE', #25, #291, #130, .T. ) ;
#50 = CARTESIAN_POINT ( 'NONE',  ( -6.349999999999999645, -6.350000000000000533, 6.349999999999999645 ) ) ;
#51 = PERSON_AND_ORGANIZATION ( #304, #136 ) ;
#52 = DIRECTION ( 'NONE',  ( 0.000000000000000000, 0.000000000000000000, -1.000000000000000000 ) ) ;
#53 = DIRECTION ( 'NONE',  ( -0.000000000000000000, 0.000000000000000000, 1.000000000000000000 ) ) ;
#54 = PRODUCT_DEFINITION_SHAPE ( 'NONE', 'NONE',  #97 ) ;
#55 = VECTOR ( 'NONE', #305, 1000.000000000000000 ) ;
#56 = APPROVAL_STATUS ( 'not_yet_approved' ) ;
#57 = CARTESIAN_POINT ( 'NONE',  ( 6.349999999999998757, 6.349999999999998757, -6.349999999999999645 ) ) ;
#58 = COORDINATED_UNIVERSAL_TIME_OFFSET ( 8, 0, .AHEAD. ) ;
#59 = LINE ( 'NONE', #208, #55 ) ;
#60 = PLANE ( 'NONE',  #306 ) ;
#61 = CC_DESIGN_APPROVAL ( #87, ( #97 ) ) ;
#62 = CC_DESIGN_PERSON_AND_ORGANIZATION_ASSIGNMENT ( #72, #247, ( #97 ) ) ;
#63 = MANIFOLD_SOLID_BREP ( 'Í¹Ì¨-À', #203 ) ;
#64 = ORIENTED_EDGE ( 'NONE', *, *, #94, .F. ) ;
#65 = ORIENTED_EDGE ( 'NONE', *, *, #307, .T. ) ;
#66 = CARTESIAN_POINT ( 'NONE',  ( 0.000000000000000000, 0.000000000000000000, 6.349999999999999645 ) ) ;
#67 = ORIENTED_EDGE ( 'NONE', *, *, #307, .F. ) ;
#68 = PERSON_AND_ORGANIZATION ( #304, #136 ) ;
#69 = ORIENTED_EDGE ( 'NONE', *, *, #29, .T. ) ;
#70 = AXIS2_PLACEMENT_3D ( 'NONE', #66, #185, #163 ) ;
#71 = MANIFOLD_SOLID_BREP ( '¾µÏ', #181 ) ;
#72 = PERSON_AND_ORGANIZATION ( #304, #136 ) ;
#73 = AXIS2_PLACEMENT_3D ( 'NONE', #92, #84, #117 ) ;
#74 = ORIENTED_EDGE ( 'NONE', *, *, #101, .F. ) ;
#75 = CARTESIAN_POINT ( 'NONE',  ( 6.349999999999998757, 6.349999999999998757, 6.349999999999999645 ) ) ;
#76 = ORIENTED_EDGE ( 'NONE', *, *, #153, .F. ) ;
#77 = CARTESIAN_POINT ( 'NONE',  ( 6.349999999999996980, 6.349999999999996980, 6.349999999999999645 ) ) ;
#78 = APPROVAL_DATE_TIME ( #156, #35 ) ;
#79 = CARTESIAN_POINT ( 'NONE',  ( 6.349999999999998757, 6.349999999999998757, -6.349999999999999645 ) ) ;
#80 = ADVANCED_FACE ( 'NONE', ( #109 ), #179, .T. ) ;
#81 = CARTESIAN_POINT ( 'NONE',  ( 6.349999999999996980, 6.349999999999996980, 6.349999999999999645 ) ) ;
#82 = APPROVAL_STATUS ( 'not_yet_approved' ) ;
#83 = DIRECTION ( 'NONE',  ( -6.829619984160658046E-17, 1.000000000000000000, -0.000000000000000000 ) ) ;
#84 = DIRECTION ( 'NONE',  ( -0.7071067811865475727, 0.7071067811865475727, 0.000000000000000000 ) ) ;
#85 = CARTESIAN_POINT ( 'NONE',  ( -6.350000000000002309, 6.350000000000001421, 6.349999999999999645 ) ) ;
#86 = EDGE_LOOP ( 'NONE', ( #65, #261, #19 ) ) ;
#87 = APPROVAL ( #227, 'UNSPECIFIED' ) ;
#88 = VECTOR ( 'NONE', #149, 1000.000000000000000 ) ;
#89 = CARTESIAN_POINT ( 'NONE',  ( 6.349999999999996980, 6.349999999999996980, 6.349999999999999645 ) ) ;
#90 = APPLICATION_CONTEXT ( 'configuration controlled 3d designs of mechanical parts and assemblies' ) ;
#91 = ORIENTED_EDGE ( 'NONE', *, *, #45, .F. ) ;
#92 = CARTESIAN_POINT ( 'NONE',  ( 6.349999999999996980, 6.349999999999996980, 6.349999999999999645 ) ) ;
#93 = ORIENTED_EDGE ( 'NONE', *, *, #299, .T. ) ;
#94 = EDGE_CURVE ( 'NONE', #295, #14, #104, .T. ) ;
#95 = LINE ( 'NONE', #11, #275 ) ;
#96 = ORIENTED_EDGE ( 'NONE', *, *, #235, .F. ) ;
#97 = PRODUCT_DEFINITION ( 'UNKNOWN', '', #242, #113 ) ;
#98 = PERSON_AND_ORGANIZATION ( #304, #136 ) ;
#99 = EDGE_LOOP ( 'NONE', ( #273, #288, #125 ) ) ;
#100 =( LENGTH_UNIT ( ) NAMED_UNIT ( * ) SI_UNIT ( .MILLI., .METRE. ) );
#101 = EDGE_CURVE ( 'NONE', #316, #123, #182, .T. ) ;
#102 = LINE ( 'NONE', #81, #47 ) ;
#103 = FACE_OUTER_BOUND ( 'NONE', #42, .T. ) ;
#104 = LINE ( 'NONE', #228, #8 ) ;
#105 = CALENDAR_DATE ( 2021, 5, 1 ) ;
#106 = LINE ( 'NONE', #276, #169 ) ;
#107 = APPROVAL_PERSON_ORGANIZATION ( #68, #197, #298 ) ;
#108 = EDGE_CURVE ( 'NONE', #211, #316, #23, .T. ) ;
#109 = FACE_OUTER_BOUND ( 'NONE', #266, .T. ) ;
#110 = CARTESIAN_POINT ( 'NONE',  ( -6.349999999999998757, -6.349999999999997868, 6.349999999999999645 ) ) ;
#111 = PRODUCT ( 'N-SF1-BPBSC-12.7-420-680', 'N-SF1-BPBSC-12.7-420-680', '', ( #220 ) ) ;
#112 = CALENDAR_DATE ( 2021, 5, 1 ) ;
#113 = DESIGN_CONTEXT ( 'detailed design', #90, 'design' ) ;
#114 = DIRECTION ( 'NONE',  ( 1.000000000000000000, -2.220446049250312588E-16, 0.000000000000000000 ) ) ;
#115 = VECTOR ( 'NONE', #13, 1000.000000000000000 ) ;
#116 = EDGE_LOOP ( 'NONE', ( #67, #170, #161, #244 ) ) ;
#117 = DIRECTION ( 'NONE',  ( 0.7071067811865475727, 0.7071067811865475727, 0.000000000000000000 ) ) ;
#118 = VERTEX_POINT ( 'NONE', #300 ) ;
#119 = PLANE ( 'NONE',  #216 ) ;
#120 = VECTOR ( 'NONE', #267, 1000.000000000000000 ) ;
#121 = VERTEX_POINT ( 'NONE', #255 ) ;
#122 = EDGE_CURVE ( 'NONE', #241, #123, #102, .T. ) ;
#123 = VERTEX_POINT ( 'NONE', #226 ) ;
#124 = COORDINATED_UNIVERSAL_TIME_OFFSET ( 8, 0, .AHEAD. ) ;
#125 = ORIENTED_EDGE ( 'NONE', *, *, #143, .T. ) ;
#126 = DIRECTION ( 'NONE',  ( 1.000000000000000000, -2.903408047666378392E-16, 0.000000000000000000 ) ) ;
#127 = DIRECTION ( 'NONE',  ( -2.220446049250312588E-16, 1.000000000000000000, 0.000000000000000000 ) ) ;
#128 = CARTESIAN_POINT ( 'NONE',  ( 0.000000000000000000, 0.000000000000000000, 6.349999999999999645 ) ) ;
#129 = DATE_TIME_ROLE ( 'classification_date' ) ;
#130 = LINE ( 'NONE', #79, #292 ) ;
#131 = CC_DESIGN_SECURITY_CLASSIFICATION ( #4, ( #242 ) ) ;
#132 = CARTESIAN_POINT ( 'NONE',  ( -6.349999999999999645, -6.350000000000000533, -6.349999999999999645 ) ) ;
#133 = DATE_AND_TIME ( #232, #254 ) ;
#134 = FACE_OUTER_BOUND ( 'NONE', #86, .T. ) ;
#135 = DIRECTION ( 'NONE',  ( -2.220446049250312588E-16, 1.000000000000000000, 0.000000000000000000 ) ) ;
#136 = ORGANIZATION ( 'UNSPECIFIED', 'UNSPECIFIED', '' ) ;
#137 = APPROVAL_ROLE ( '' ) ;
#138 = DIRECTION ( 'NONE',  ( -2.903408047666378392E-16, -1.000000000000000000, 0.000000000000000000 ) ) ;
#139 = FACE_OUTER_BOUND ( 'NONE', #116, .T. ) ;
#140 = ADVANCED_FACE ( 'NONE', ( #281 ), #152, .F. ) ;
#141 = ORIENTED_EDGE ( 'NONE', *, *, #49, .T. ) ;
#142 = PLANE ( 'NONE',  #210 ) ;
#143 = EDGE_CURVE ( 'NONE', #269, #295, #28, .T. ) ;
#144 = VECTOR ( 'NONE', #126, 1000.000000000000000 ) ;
#145 = LOCAL_TIME ( 10, 13, 58.00000000000000000, #253 ) ;
#146 = ORIENTED_EDGE ( 'NONE', *, *, #225, .T. ) ;
#147 = DIRECTION ( 'NONE',  ( 0.000000000000000000, 1.000000000000000000, 0.000000000000000000 ) ) ;
#148 = DATE_AND_TIME ( #105, #16 ) ;
#149 = DIRECTION ( 'NONE',  ( 1.000000000000000000, 0.000000000000000000, 0.000000000000000000 ) ) ;
#150 = ADVANCED_FACE ( 'NONE', ( #200 ), #277, .F. ) ;
#151 = LINE ( 'NONE', #77, #144 ) ;
#152 = PLANE ( 'NONE',  #252 ) ;
#153 = EDGE_CURVE ( 'NONE', #14, #269, #6, .T. ) ;
#154 = CARTESIAN_POINT ( 'NONE',  ( 6.349999999999998757, 6.349999999999998757, 6.349999999999999645 ) ) ;
#155 = ADVANCED_FACE ( 'NONE', ( #212 ), #60, .F. ) ;
#156 = DATE_AND_TIME ( #3, #230 ) ;
#157 = CARTESIAN_POINT ( 'NONE',  ( 0.000000000000000000, 0.000000000000000000, -6.349999999999999645 ) ) ;
#158 = PERSON_AND_ORGANIZATION ( #304, #136 ) ;
#159 = LINE ( 'NONE', #30, #191 ) ;
#160 = APPROVAL_PERSON_ORGANIZATION ( #290, #87, #46 ) ;
#161 = ORIENTED_EDGE ( 'NONE', *, *, #45, .T. ) ;
#162 = EDGE_CURVE ( 'NONE', #14, #44, #95, .T. ) ;
#163 = DIRECTION ( 'NONE',  ( 1.000000000000000000, 0.000000000000000000, 0.000000000000000000 ) ) ;
#164 = ORIENTED_EDGE ( 'NONE', *, *, #223, .F. ) ;
#165 = PRODUCT_RELATED_PRODUCT_CATEGORY ( 'detail', '', ( #111 ) ) ;
#166 = PLANE ( 'NONE',  #73 ) ;
#167 = ORIENTED_EDGE ( 'NONE', *, *, #10, .F. ) ;
#168 = LINE ( 'NONE', #294, #196 ) ;
#169 = VECTOR ( 'NONE', #251, 999.9999999999998863 ) ;
#170 = ORIENTED_EDGE ( 'NONE', *, *, #122, .F. ) ;
#171 = AXIS2_PLACEMENT_3D ( 'NONE', #157, #32, #135 ) ;
#172 = EDGE_CURVE ( 'NONE', #291, #44, #189, .T. ) ;
#173 = DIRECTION ( 'NONE',  ( 0.7071067811865474617, 0.7071067811865474617, 0.000000000000000000 ) ) ;
#174 = CARTESIAN_POINT ( 'NONE',  ( 0.000000000000000000, 0.000000000000000000, 0.000000000000000000 ) ) ;
#175 = DIRECTION ( 'NONE',  ( 1.000000000000000000, -2.903408047666378392E-16, 0.000000000000000000 ) ) ;
#176 = DIRECTION ( 'NONE',  ( -0.7071067811865475727, -0.7071067811865475727, 0.000000000000000000 ) ) ;
#177 = CARTESIAN_POINT ( 'NONE',  ( -6.349999999999999645, -6.350000000000000533, 6.349999999999999645 ) ) ;
#178 = ADVANCED_FACE ( 'NONE', ( #186 ), #142, .F. ) ;
#179 = PLANE ( 'NONE',  #1 ) ;
#180 = CARTESIAN_POINT ( 'NONE',  ( 6.349999999999998757, 6.349999999999998757, 6.349999999999999645 ) ) ;
#181 = CLOSED_SHELL ( 'NONE', ( #256, #178, #155, #80, #296 ) ) ;
#182 = LINE ( 'NONE', #2, #190 ) ;
#183 = CC_DESIGN_APPROVAL ( #197, ( #242 ) ) ;
#184 = PERSON_AND_ORGANIZATION_ROLE ( 'design_supplier' ) ;
#185 = DIRECTION ( 'NONE',  ( -0.000000000000000000, 0.000000000000000000, 1.000000000000000000 ) ) ;
#186 = FACE_OUTER_BOUND ( 'NONE', #198, .T. ) ;
#187 = VECTOR ( 'NONE', #127, 1000.000000000000000 ) ;
#188 = APPROVAL_PERSON_ORGANIZATION ( #158, #35, #137 ) ;
#189 = LINE ( 'NONE', #37, #27 ) ;
#190 = VECTOR ( 'NONE', #175, 1000.000000000000000 ) ;
#191 = VECTOR ( 'NONE', #237, 1000.000000000000000 ) ;
#192 = CARTESIAN_POINT ( 'NONE',  ( 6.349999999999996980, 6.349999999999996980, 6.349999999999999645 ) ) ;
#193 = EDGE_LOOP ( 'NONE', ( #141, #96, #195, #146 ) ) ;
#194 = DIRECTION ( 'NONE',  ( 6.829619984160658046E-17, -1.000000000000000000, 0.000000000000000000 ) ) ;
#195 = ORIENTED_EDGE ( 'NONE', *, *, #143, .F. ) ;
#196 = VECTOR ( 'NONE', #176, 999.9999999999998863 ) ;
#197 = APPROVAL ( #82, 'UNSPECIFIED' ) ;
#198 = EDGE_LOOP ( 'NONE', ( #15, #18, #219, #93 ) ) ;
#199 = PERSON_AND_ORGANIZATION_ROLE ( 'design_owner' ) ;
#200 = FACE_OUTER_BOUND ( 'NONE', #293, .T. ) ;
#201 = DIRECTION ( 'NONE',  ( 0.7071067811865475727, -0.7071067811865475727, 0.000000000000000000 ) ) ;
#202 = DIRECTION ( 'NONE',  ( 0.000000000000000000, -0.000000000000000000, 1.000000000000000000 ) ) ;
#203 = CLOSED_SHELL ( 'NONE', ( #321, #140, #282, #206, #150 ) ) ;
#204 = LINE ( 'NONE', #132, #88 ) ;
#205 = DIRECTION ( 'NONE',  ( 0.000000000000000000, 0.000000000000000000, 1.000000000000000000 ) ) ;
#206 = ADVANCED_FACE ( 'NONE', ( #34 ), #214, .T. ) ;
#207 = ORIENTED_EDGE ( 'NONE', *, *, #49, .F. ) ;
#208 = CARTESIAN_POINT ( 'NONE',  ( 6.349999999999998757, 6.349999999999998757, 6.349999999999999645 ) ) ;
#209 = SHAPE_DEFINITION_REPRESENTATION ( #54, #217 ) ;
#210 = AXIS2_PLACEMENT_3D ( 'NONE', #110, #114, #303 ) ;
#211 = VERTEX_POINT ( 'NONE', #287 ) ;
#212 = FACE_OUTER_BOUND ( 'NONE', #221, .T. ) ;
#213 = CC_DESIGN_PERSON_AND_ORGANIZATION_ASSIGNMENT ( #98, #199, ( #111 ) ) ;
#214 = PLANE ( 'NONE',  #70 ) ;
#215 = ORIENTED_EDGE ( 'NONE', *, *, #10, .T. ) ;
#216 = AXIS2_PLACEMENT_3D ( 'NONE', #309, #312, #194 ) ;
#217 = ADVANCED_BREP_SHAPE_REPRESENTATION ( 'N-SF1-BPBSC-12.7-420-680', ( #63, #71, #311 ), #317 ) ;
#218 = FACE_OUTER_BOUND ( 'NONE', #193, .T. ) ;
#219 = ORIENTED_EDGE ( 'NONE', *, *, #223, .T. ) ;
#220 = MECHANICAL_CONTEXT ( 'NONE', #285, 'mechanical' ) ;
#221 = EDGE_LOOP ( 'NONE', ( #74, #239, #215, #231 ) ) ;
#222 = APPROVAL_DATE_TIME ( #148, #87 ) ;
#223 = EDGE_CURVE ( 'NONE', #118, #121, #262, .T. ) ;
#224 = DIRECTION ( 'NONE',  ( -0.7071067811865474617, -0.7071067811865474617, 0.000000000000000000 ) ) ;
#225 = EDGE_CURVE ( 'NONE', #269, #25, #159, .T. ) ;
#226 = CARTESIAN_POINT ( 'NONE',  ( 6.349999999999996980, 6.349999999999996980, -6.349999999999999645 ) ) ;
#227 = APPROVAL_STATUS ( 'not_yet_approved' ) ;
#228 = CARTESIAN_POINT ( 'NONE',  ( 6.349999999999998757, 6.349999999999998757, 6.349999999999999645 ) ) ;
#229 = COORDINATED_UNIVERSAL_TIME_OFFSET ( 8, 0, .AHEAD. ) ;
#230 = LOCAL_TIME ( 10, 13, 58.00000000000000000, #58 ) ;
#231 = ORIENTED_EDGE ( 'NONE', *, *, #122, .T. ) ;
#232 = CALENDAR_DATE ( 2021, 5, 1 ) ;
#233 = DIRECTION ( 'NONE',  ( 1.000000000000000000, 0.000000000000000000, 0.000000000000000000 ) ) ;
#234 = PLANE ( 'NONE',  #171 ) ;
#235 = EDGE_CURVE ( 'NONE', #295, #291, #59, .T. ) ;
#236 = LOCAL_TIME ( 10, 13, 58.00000000000000000, #272 ) ;
#237 = DIRECTION ( 'NONE',  ( -0.000000000000000000, -0.000000000000000000, -1.000000000000000000 ) ) ;
#238 = CARTESIAN_POINT ( 'NONE',  ( -6.349999999999998757, -6.349999999999997868, 6.349999999999999645 ) ) ;
#239 = ORIENTED_EDGE ( 'NONE', *, *, #299, .F. ) ;
#240 = LINE ( 'NONE', #238, #115 ) ;
#241 = VERTEX_POINT ( 'NONE', #192 ) ;
#242 = PRODUCT_DEFINITION_FORMATION_WITH_SPECIFIED_SOURCE ( 'ANY', '', #111, .NOT_KNOWN. ) ;
#243 = APPLICATION_PROTOCOL_DEFINITION ( 'international standard', 'config_control_design', 1994, #90 ) ;
#244 = ORIENTED_EDGE ( 'NONE', *, *, #265, .T. ) ;
#245 =( NAMED_UNIT ( * ) SI_UNIT ( $, .STERADIAN. ) SOLID_ANGLE_UNIT ( ) );
#246 = DIRECTION ( 'NONE',  ( -6.829619984160658046E-17, 1.000000000000000000, -0.000000000000000000 ) ) ;
#247 = PERSON_AND_ORGANIZATION_ROLE ( 'creator' ) ;
#248 = CC_DESIGN_PERSON_AND_ORGANIZATION_ASSIGNMENT ( #51, #184, ( #242 ) ) ;
#249 = CARTESIAN_POINT ( 'NONE',  ( -6.349999999999998757, -6.349999999999997868, -6.349999999999999645 ) ) ;
#250 = DIRECTION ( 'NONE',  ( 1.000000000000000000, 0.000000000000000000, 0.000000000000000000 ) ) ;
#251 = DIRECTION ( 'NONE',  ( -0.7071067811865475727, -0.7071067811865475727, 0.000000000000000000 ) ) ;
#252 = AXIS2_PLACEMENT_3D ( 'NONE', #177, #147, #202 ) ;
#253 = COORDINATED_UNIVERSAL_TIME_OFFSET ( 8, 0, .AHEAD. ) ;
#254 = LOCAL_TIME ( 10, 13, 58.00000000000000000, #229 ) ;
#255 = CARTESIAN_POINT ( 'NONE',  ( -6.350000000000002309, 6.350000000000001421, 6.349999999999999645 ) ) ;
#256 = ADVANCED_FACE ( 'NONE', ( #139 ), #166, .F. ) ;
#257 = CARTESIAN_POINT ( 'NONE',  ( -6.349999999999998757, -6.349999999999997868, 6.349999999999999645 ) ) ;
#258 = CC_DESIGN_DATE_AND_TIME_ASSIGNMENT ( #22, #319, ( #97 ) ) ;
#259 = DIRECTION ( 'NONE',  ( -0.000000000000000000, -0.000000000000000000, -1.000000000000000000 ) ) ;
#260 = AXIS2_PLACEMENT_3D ( 'NONE', #280, #53, #233 ) ;
#261 = ORIENTED_EDGE ( 'NONE', *, *, #108, .T. ) ;
#262 = LINE ( 'NONE', #257, #302 ) ;
#263 = EDGE_LOOP ( 'NONE', ( #69, #313, #76, #310 ) ) ;
#264 = CARTESIAN_POINT ( 'NONE',  ( 6.349999999999999645, -6.350000000000000533, 6.349999999999999645 ) ) ;
#265 = EDGE_CURVE ( 'NONE', #118, #211, #240, .T. ) ;
#266 = EDGE_LOOP ( 'NONE', ( #91, #167, #164 ) ) ;
#267 = DIRECTION ( 'NONE',  ( 0.000000000000000000, 0.000000000000000000, -1.000000000000000000 ) ) ;
#268 = VECTOR ( 'NONE', #250, 1000.000000000000000 ) ;
#269 = VERTEX_POINT ( 'NONE', #264 ) ;
#270 = AXIS2_PLACEMENT_3D ( 'NONE', #75, #201, #173 ) ;
#271 = CC_DESIGN_APPROVAL ( #35, ( #4 ) ) ;
#272 = COORDINATED_UNIVERSAL_TIME_OFFSET ( 8, 0, .AHEAD. ) ;
#273 = ORIENTED_EDGE ( 'NONE', *, *, #94, .T. ) ;
#274 = DIRECTION ( 'NONE',  ( 0.000000000000000000, 0.000000000000000000, 1.000000000000000000 ) ) ;
#275 = VECTOR ( 'NONE', #259, 1000.000000000000000 ) ;
#276 = CARTESIAN_POINT ( 'NONE',  ( 6.349999999999996980, 6.349999999999996980, 6.349999999999999645 ) ) ;
#277 = PLANE ( 'NONE',  #260 ) ;
#278 = APPROVAL_DATE_TIME ( #301, #197 ) ;
#279 = DIRECTION ( 'NONE',  ( -2.220446049250312588E-16, 1.000000000000000000, 0.000000000000000000 ) ) ;
#280 = CARTESIAN_POINT ( 'NONE',  ( 0.000000000000000000, 0.000000000000000000, -6.349999999999999645 ) ) ;
#281 = FACE_OUTER_BOUND ( 'NONE', #263, .T. ) ;
#282 = ADVANCED_FACE ( 'NONE', ( #218 ), #119, .F. ) ;
#283 = PERSON_AND_ORGANIZATION_ROLE ( 'classification_officer' ) ;
#284 = DIRECTION ( 'NONE',  ( -1.000000000000000000, 2.903408047666378392E-16, 0.000000000000000000 ) ) ;
#285 = APPLICATION_CONTEXT ( 'configuration controlled 3d designs of mechanical parts and assemblies' ) ;
#286 = DIRECTION ( 'NONE',  ( -0.7071067811865474617, -0.7071067811865474617, 0.000000000000000000 ) ) ;
#287 = CARTESIAN_POINT ( 'NONE',  ( -6.349999999999998757, -6.349999999999997868, -6.349999999999999645 ) ) ;
#288 = ORIENTED_EDGE ( 'NONE', *, *, #153, .T. ) ;
#289 = CC_DESIGN_PERSON_AND_ORGANIZATION_ASSIGNMENT ( #26, #283, ( #4 ) ) ;
#290 = PERSON_AND_ORGANIZATION ( #304, #136 ) ;
#291 = VERTEX_POINT ( 'NONE', #57 ) ;
#292 = VECTOR ( 'NONE', #83, 1000.000000000000000 ) ;
#293 = EDGE_LOOP ( 'NONE', ( #40, #207, #308 ) ) ;
#294 = CARTESIAN_POINT ( 'NONE',  ( 6.349999999999996980, 6.349999999999996980, -6.349999999999999645 ) ) ;
#295 = VERTEX_POINT ( 'NONE', #154 ) ;
#296 = ADVANCED_FACE ( 'NONE', ( #134 ), #234, .F. ) ;
#297 = CARTESIAN_POINT ( 'NONE',  ( -6.349999999999999645, -6.350000000000000533, -6.349999999999999645 ) ) ;
#298 = APPROVAL_ROLE ( '' ) ;
#299 = EDGE_CURVE ( 'NONE', #121, #316, #9, .T. ) ;
#300 = CARTESIAN_POINT ( 'NONE',  ( -6.349999999999998757, -6.349999999999997868, 6.349999999999999645 ) ) ;
#301 = DATE_AND_TIME ( #112, #145 ) ;
#302 = VECTOR ( 'NONE', #36, 1000.000000000000000 ) ;
#303 = DIRECTION ( 'NONE',  ( 0.000000000000000000, 0.000000000000000000, 1.000000000000000000 ) ) ;
#304 = PERSON ( 'UNSPECIFIED', 'UNSPECIFIED', 'UNSPECIFIED', ('UNSPECIFIED'), ('UNSPECIFIED'), ('UNSPECIFIED') ) ;
#305 = DIRECTION ( 'NONE',  ( -0.000000000000000000, -0.000000000000000000, -1.000000000000000000 ) ) ;
#306 = AXIS2_PLACEMENT_3D ( 'NONE', #89, #138, #284 ) ;
#307 = EDGE_CURVE ( 'NONE', #123, #211, #168, .T. ) ;
#308 = ORIENTED_EDGE ( 'NONE', *, *, #29, .F. ) ;
#309 = CARTESIAN_POINT ( 'NONE',  ( 6.349999999999998757, 6.349999999999998757, 6.349999999999999645 ) ) ;
#310 = ORIENTED_EDGE ( 'NONE', *, *, #162, .T. ) ;
#311 = AXIS2_PLACEMENT_3D ( 'NONE', #174, #274, #17 ) ;
#312 = DIRECTION ( 'NONE',  ( -1.000000000000000000, -6.829619984160658046E-17, 0.000000000000000000 ) ) ;
#313 = ORIENTED_EDGE ( 'NONE', *, *, #225, .F. ) ;
#314 = UNCERTAINTY_MEASURE_WITH_UNIT (LENGTH_MEASURE( 1.000000000000000082E-05 ), #100, 'distance_accuracy_value', 'NONE');
#315 = CALENDAR_DATE ( 2021, 5, 1 ) ;
#316 = VERTEX_POINT ( 'NONE', #43 ) ;
#317 =( GEOMETRIC_REPRESENTATION_CONTEXT ( 3 ) GLOBAL_UNCERTAINTY_ASSIGNED_CONTEXT ( ( #314 ) ) GLOBAL_UNIT_ASSIGNED_CONTEXT ( ( #100, #39, #245 ) ) REPRESENTATION_CONTEXT ( 'NONE', 'WORKASPACE' ) );
#318 = APPLICATION_PROTOCOL_DEFINITION ( 'international standard', 'config_control_design', 1994, #285 ) ;
#319 = DATE_TIME_ROLE ( 'creation_date' ) ;
#320 = ORIENTED_EDGE ( 'NONE', *, *, #162, .F. ) ;
#321 = ADVANCED_FACE ( 'NONE', ( #103 ), #41, .F. ) ;
ENDSEC;
END-ISO-10303-21;
